ISO-10303-21;
HEADER;
/* Generated by software containing ST-Developer
 * from STEP Tools, Inc. (www.steptools.com) 
 */
/* OPTION: strings as raw bytes, not using required /X/ escapes */

FILE_DESCRIPTION(
/* description */ ('Unknown'),
/* implementation_level */ '2;1');

FILE_NAME(
/* name */ 'CBA10',
/* time_stamp */ '2016-03-15T11:19:00+01:00',
/* author */ ('Unknown'),
/* organization */ ('Unknown'),
/* preprocessor_version */ 'ST-DEVELOPER v16.7',
/* originating_system */ 'DEX',
/* authorisation */ $);

FILE_SCHEMA (('AUTOMOTIVE_DESIGN {1 0 10303 214 3 1 1}'));
ENDSEC;

DATA;
#10=PROPERTY_DEFINITION_REPRESENTATION(#14,#12);
#11=PROPERTY_DEFINITION_REPRESENTATION(#15,#13);
#12=REPRESENTATION('',(#16),#471);
#13=REPRESENTATION('',(#17),#471);
#14=PROPERTY_DEFINITION('pmi validation property','',#480);
#15=PROPERTY_DEFINITION('pmi validation property','',#480);
#16=VALUE_REPRESENTATION_ITEM('number of annotations',COUNT_MEASURE(0.));
#17=VALUE_REPRESENTATION_ITEM('number of views',COUNT_MEASURE(0.));
#18=B_SPLINE_CURVE_WITH_KNOTS('',3,(#415,#416,#417,#418,#419,#420,#421,
#422,#423,#424,#425,#426,#427,#428,#429,#430,#431,#432,#433,#434,#435,#436,
#437,#438,#439,#440,#441,#442,#443,#444,#445,#446,#447,#448,#449),
 .UNSPECIFIED.,.T.,.F.,(1,1,1,1,1,1,1,1,1,1,1,1,1,1,1,1,1,1,1,1,1,1,1,1,
1,1,1,1,1,1,1,1,1,1,1,1,1,1,1),(-0.0953947368421053,-0.0641447368421053,
-0.0328947368421053,0.,0.0296875,0.060859375,0.09210546875,0.1233552734375,
0.154605263671875,0.185855263183594,0.21710526315918,0.248355263157959,
0.279605263157898,0.310855263157895,0.342105263157895,0.373355263157895,
0.404605263157895,0.435855263157895,0.467105263157895,0.498355263157895,
0.529605263157895,0.560855263157895,0.592105263157895,0.623355263157895,
0.654605263157895,0.685855263157895,0.717105263157895,0.748355263157895,
0.779605263157895,0.810855263157895,0.842105263157895,0.873355263157895,
0.904605263157895,0.935855263157895,0.967105263157895,1.,1.0296875,1.060859375,
1.09210546875),.UNSPECIFIED.);
#19=CONTEXT_DEPENDENT_SHAPE_REPRESENTATION(#23,#482);
#20=CONTEXT_DEPENDENT_SHAPE_REPRESENTATION(#24,#484);
#21=NEXT_ASSEMBLY_USAGE_OCCURRENCE('PORTA DISPENSER A MURO',
'PORTA DISPENSER A MURO','PORTA DISPENSER A MURO',#485,#486,'');
#22=NEXT_ASSEMBLY_USAGE_OCCURRENCE('PORTA DISPENSER A MURO_0',
'PORTA DISPENSER A MURO_0','PORTA DISPENSER A MURO_0',#485,#487,'');
#23=(
REPRESENTATION_RELATIONSHIP(' ',' ',#254,#255)
REPRESENTATION_RELATIONSHIP_WITH_TRANSFORMATION(#25)
SHAPE_REPRESENTATION_RELATIONSHIP()
);
#24=(
REPRESENTATION_RELATIONSHIP(' ',' ',#256,#255)
REPRESENTATION_RELATIONSHIP_WITH_TRANSFORMATION(#26)
SHAPE_REPRESENTATION_RELATIONSHIP()
);
#25=ITEM_DEFINED_TRANSFORMATION(' ',' ',#257,#267);
#26=ITEM_DEFINED_TRANSFORMATION(' ',' ',#257,#296);
#27=SHAPE_REPRESENTATION_RELATIONSHIP('','',#254,#29);
#28=SHAPE_REPRESENTATION_RELATIONSHIP('','',#256,#30);
#29=ADVANCED_BREP_SHAPE_REPRESENTATION('',(#249),#472);
#30=ADVANCED_BREP_SHAPE_REPRESENTATION('',(#250),#473);
#31=TOROIDAL_SURFACE('',#265,24.6999999999997,0.300000000000307);
#32=TOROIDAL_SURFACE('',#266,24.6999999999997,0.300000000000307);
#33=TOROIDAL_SURFACE('',#290,8.69999999999968,0.300000000000317);
#34=TOROIDAL_SURFACE('',#291,16.6999999999997,0.300000000000317);
#35=TOROIDAL_SURFACE('',#292,16.6999999999997,0.300000000000317);
#36=TOROIDAL_SURFACE('',#293,7.05000000000032,0.300000000000317);
#37=TOROIDAL_SURFACE('',#294,8.69999999999968,0.300000000000317);
#38=TOROIDAL_SURFACE('',#295,2.19999999999968,0.300000000000317);
#39=PLANE('',#261);
#40=PLANE('',#263);
#41=PLANE('',#268);
#42=PLANE('',#274);
#43=PLANE('',#282);
#44=PLANE('',#284);
#45=PLANE('',#288);
#46=ORIENTED_EDGE('',*,*,#82,.T.);
#47=ORIENTED_EDGE('',*,*,#83,.T.);
#48=ORIENTED_EDGE('',*,*,#84,.T.);
#49=ORIENTED_EDGE('',*,*,#85,.T.);
#50=ORIENTED_EDGE('',*,*,#83,.F.);
#51=ORIENTED_EDGE('',*,*,#85,.F.);
#52=ORIENTED_EDGE('',*,*,#82,.F.);
#53=ORIENTED_EDGE('',*,*,#84,.F.);
#54=ORIENTED_EDGE('',*,*,#86,.T.);
#55=ORIENTED_EDGE('',*,*,#87,.T.);
#56=ORIENTED_EDGE('',*,*,#88,.T.);
#57=ORIENTED_EDGE('',*,*,#89,.T.);
#58=ORIENTED_EDGE('',*,*,#90,.T.);
#59=ORIENTED_EDGE('',*,*,#91,.T.);
#60=ORIENTED_EDGE('',*,*,#92,.F.);
#61=ORIENTED_EDGE('',*,*,#93,.T.);
#62=ORIENTED_EDGE('',*,*,#94,.T.);
#63=ORIENTED_EDGE('',*,*,#95,.F.);
#64=ORIENTED_EDGE('',*,*,#96,.T.);
#65=ORIENTED_EDGE('',*,*,#92,.T.);
#66=ORIENTED_EDGE('',*,*,#97,.T.);
#67=ORIENTED_EDGE('',*,*,#98,.T.);
#68=ORIENTED_EDGE('',*,*,#95,.T.);
#69=ORIENTED_EDGE('',*,*,#99,.T.);
#70=ORIENTED_EDGE('',*,*,#94,.F.);
#71=ORIENTED_EDGE('',*,*,#97,.F.);
#72=ORIENTED_EDGE('',*,*,#89,.F.);
#73=ORIENTED_EDGE('',*,*,#90,.F.);
#74=ORIENTED_EDGE('',*,*,#88,.F.);
#75=ORIENTED_EDGE('',*,*,#87,.F.);
#76=ORIENTED_EDGE('',*,*,#91,.F.);
#77=ORIENTED_EDGE('',*,*,#86,.F.);
#78=ORIENTED_EDGE('',*,*,#93,.F.);
#79=ORIENTED_EDGE('',*,*,#96,.F.);
#80=ORIENTED_EDGE('',*,*,#98,.F.);
#81=ORIENTED_EDGE('',*,*,#99,.F.);
#82=EDGE_CURVE('',#100,#100,#118,.F.);
#83=EDGE_CURVE('',#101,#101,#119,.F.);
#84=EDGE_CURVE('',#102,#102,#120,.T.);
#85=EDGE_CURVE('',#103,#103,#121,.T.);
#86=EDGE_CURVE('',#104,#104,#122,.F.);
#87=EDGE_CURVE('',#105,#105,#123,.T.);
#88=EDGE_CURVE('',#106,#106,#124,.F.);
#89=EDGE_CURVE('',#107,#107,#125,.F.);
#90=EDGE_CURVE('',#108,#108,#126,.T.);
#91=EDGE_CURVE('',#109,#109,#127,.T.);
#92=EDGE_CURVE('',#110,#110,#128,.T.);
#93=EDGE_CURVE('',#111,#111,#129,.F.);
#94=EDGE_CURVE('',#112,#112,#130,.F.);
#95=EDGE_CURVE('',#113,#113,#18,.F.);
#96=EDGE_CURVE('',#114,#114,#131,.T.);
#97=EDGE_CURVE('',#115,#115,#132,.T.);
#98=EDGE_CURVE('',#116,#116,#133,.F.);
#99=EDGE_CURVE('',#117,#117,#134,.T.);
#100=VERTEX_POINT('',#380);
#101=VERTEX_POINT('',#382);
#102=VERTEX_POINT('',#385);
#103=VERTEX_POINT('',#388);
#104=VERTEX_POINT('',#394);
#105=VERTEX_POINT('',#396);
#106=VERTEX_POINT('',#399);
#107=VERTEX_POINT('',#401);
#108=VERTEX_POINT('',#404);
#109=VERTEX_POINT('',#407);
#110=VERTEX_POINT('',#409);
#111=VERTEX_POINT('',#412);
#112=VERTEX_POINT('',#414);
#113=VERTEX_POINT('',#450);
#114=VERTEX_POINT('',#453);
#115=VERTEX_POINT('',#456);
#116=VERTEX_POINT('',#459);
#117=VERTEX_POINT('',#462);
#118=CIRCLE('',#259,25.);
#119=CIRCLE('',#260,25.);
#120=CIRCLE('',#262,24.6999999999997);
#121=CIRCLE('',#264,24.6999999999997);
#122=CIRCLE('',#269,7.05000000000032);
#123=CIRCLE('',#270,16.6999999999997);
#124=CIRCLE('',#272,17.);
#125=CIRCLE('',#273,17.);
#126=CIRCLE('',#275,16.6999999999997);
#127=CIRCLE('',#277,6.75);
#128=CIRCLE('',#278,6.75);
#129=CIRCLE('',#280,9.);
#130=CIRCLE('',#281,9.);
#131=CIRCLE('',#283,8.69999999999968);
#132=CIRCLE('',#285,8.69999999999968);
#133=CIRCLE('',#287,2.5);
#134=CIRCLE('',#289,2.19999999999968);
#135=EDGE_LOOP('',(#46));
#136=EDGE_LOOP('',(#47));
#137=EDGE_LOOP('',(#48));
#138=EDGE_LOOP('',(#49));
#139=EDGE_LOOP('',(#50));
#140=EDGE_LOOP('',(#51));
#141=EDGE_LOOP('',(#52));
#142=EDGE_LOOP('',(#53));
#143=EDGE_LOOP('',(#54));
#144=EDGE_LOOP('',(#55));
#145=EDGE_LOOP('',(#56));
#146=EDGE_LOOP('',(#57));
#147=EDGE_LOOP('',(#58));
#148=EDGE_LOOP('',(#59));
#149=EDGE_LOOP('',(#60));
#150=EDGE_LOOP('',(#61));
#151=EDGE_LOOP('',(#62));
#152=EDGE_LOOP('',(#63));
#153=EDGE_LOOP('',(#64));
#154=EDGE_LOOP('',(#65));
#155=EDGE_LOOP('',(#66));
#156=EDGE_LOOP('',(#67));
#157=EDGE_LOOP('',(#68));
#158=EDGE_LOOP('',(#69));
#159=EDGE_LOOP('',(#70));
#160=EDGE_LOOP('',(#71));
#161=EDGE_LOOP('',(#72));
#162=EDGE_LOOP('',(#73));
#163=EDGE_LOOP('',(#74));
#164=EDGE_LOOP('',(#75));
#165=EDGE_LOOP('',(#76));
#166=EDGE_LOOP('',(#77));
#167=EDGE_LOOP('',(#78));
#168=EDGE_LOOP('',(#79));
#169=EDGE_LOOP('',(#80));
#170=EDGE_LOOP('',(#81));
#171=FACE_BOUND('',#135,.T.);
#172=FACE_BOUND('',#136,.T.);
#173=FACE_BOUND('',#137,.T.);
#174=FACE_BOUND('',#138,.T.);
#175=FACE_BOUND('',#139,.T.);
#176=FACE_BOUND('',#140,.T.);
#177=FACE_BOUND('',#141,.T.);
#178=FACE_BOUND('',#142,.T.);
#179=FACE_BOUND('',#143,.T.);
#180=FACE_BOUND('',#144,.T.);
#181=FACE_BOUND('',#145,.T.);
#182=FACE_BOUND('',#146,.T.);
#183=FACE_BOUND('',#147,.T.);
#184=FACE_BOUND('',#148,.T.);
#185=FACE_BOUND('',#149,.T.);
#186=FACE_BOUND('',#150,.T.);
#187=FACE_BOUND('',#151,.T.);
#188=FACE_BOUND('',#152,.T.);
#189=FACE_BOUND('',#153,.T.);
#190=FACE_BOUND('',#154,.T.);
#191=FACE_BOUND('',#155,.T.);
#192=FACE_BOUND('',#156,.T.);
#193=FACE_BOUND('',#157,.T.);
#194=FACE_BOUND('',#158,.T.);
#195=FACE_BOUND('',#159,.T.);
#196=FACE_BOUND('',#160,.T.);
#197=FACE_BOUND('',#161,.T.);
#198=FACE_BOUND('',#162,.T.);
#199=FACE_BOUND('',#163,.T.);
#200=FACE_BOUND('',#164,.T.);
#201=FACE_BOUND('',#165,.T.);
#202=FACE_BOUND('',#166,.T.);
#203=FACE_BOUND('',#167,.T.);
#204=FACE_BOUND('',#168,.T.);
#205=FACE_BOUND('',#169,.T.);
#206=FACE_BOUND('',#170,.T.);
#207=CYLINDRICAL_SURFACE('',#258,25.);
#208=CYLINDRICAL_SURFACE('',#271,17.);
#209=CYLINDRICAL_SURFACE('',#276,6.75);
#210=CYLINDRICAL_SURFACE('',#279,9.);
#211=CYLINDRICAL_SURFACE('',#286,2.5);
#212=ADVANCED_FACE('',(#171,#172),#207,.T.);
#213=ADVANCED_FACE('',(#173),#39,.T.);
#214=ADVANCED_FACE('',(#174),#40,.T.);
#215=ADVANCED_FACE('',(#175,#176),#31,.T.);
#216=ADVANCED_FACE('',(#177,#178),#32,.T.);
#217=ADVANCED_FACE('',(#179,#180),#41,.T.);
#218=ADVANCED_FACE('',(#181,#182),#208,.T.);
#219=ADVANCED_FACE('',(#183),#42,.T.);
#220=ADVANCED_FACE('',(#184,#185),#209,.T.);
#221=ADVANCED_FACE('',(#186,#187,#188),#210,.T.);
#222=ADVANCED_FACE('',(#189,#190),#43,.T.);
#223=ADVANCED_FACE('',(#191),#44,.T.);
#224=ADVANCED_FACE('',(#192,#193),#211,.T.);
#225=ADVANCED_FACE('',(#194),#45,.T.);
#226=ADVANCED_FACE('',(#195,#196),#33,.T.);
#227=ADVANCED_FACE('',(#197,#198),#34,.T.);
#228=ADVANCED_FACE('',(#199,#200),#35,.T.);
#229=ADVANCED_FACE('',(#201,#202),#36,.F.);
#230=ADVANCED_FACE('',(#203,#204),#37,.T.);
#231=ADVANCED_FACE('',(#205,#206),#38,.T.);
#232=CLOSED_SHELL('',(#212,#213,#214,#215,#216));
#233=CLOSED_SHELL('',(#217,#218,#219,#220,#221,#222,#223,#224,#225,#226,
#227,#228,#229,#230,#231));
#234=STYLED_ITEM('',(#236),#249);
#235=STYLED_ITEM('',(#237),#250);
#236=PRESENTATION_STYLE_ASSIGNMENT((#238));
#237=PRESENTATION_STYLE_ASSIGNMENT((#239));
#238=SURFACE_STYLE_USAGE(.BOTH.,#240);
#239=SURFACE_STYLE_USAGE(.BOTH.,#241);
#240=SURFACE_SIDE_STYLE('',(#242));
#241=SURFACE_SIDE_STYLE('',(#243));
#242=SURFACE_STYLE_FILL_AREA(#244);
#243=SURFACE_STYLE_FILL_AREA(#245);
#244=FILL_AREA_STYLE('',(#246));
#245=FILL_AREA_STYLE('',(#247));
#246=FILL_AREA_STYLE_COLOUR('',#248);
#247=FILL_AREA_STYLE_COLOUR('',#248);
#248=COLOUR_RGB('',0.506983280181885,0.531564235687256,0.550000011920929);
#249=MANIFOLD_SOLID_BREP('',#232);
#250=MANIFOLD_SOLID_BREP('',#233);
#251=SHAPE_DEFINITION_REPRESENTATION(#481,#254);
#252=SHAPE_DEFINITION_REPRESENTATION(#480,#255);
#253=SHAPE_DEFINITION_REPRESENTATION(#483,#256);
#254=SHAPE_REPRESENTATION('PORTA DISPENSER A MURO',(#257),#472);
#255=SHAPE_REPRESENTATION('CBA10',(#257,#267,#296),#471);
#256=SHAPE_REPRESENTATION('PORTA DISPENSER A MURO_0',(#257),#473);
#257=AXIS2_PLACEMENT_3D('',#377,#297,#298);
#258=AXIS2_PLACEMENT_3D('',#378,#299,#300);
#259=AXIS2_PLACEMENT_3D('',#379,#301,#302);
#260=AXIS2_PLACEMENT_3D('',#381,#303,#304);
#261=AXIS2_PLACEMENT_3D('',#383,#305,#306);
#262=AXIS2_PLACEMENT_3D('',#384,#307,#308);
#263=AXIS2_PLACEMENT_3D('',#386,#309,#310);
#264=AXIS2_PLACEMENT_3D('',#387,#311,#312);
#265=AXIS2_PLACEMENT_3D('',#389,#313,#314);
#266=AXIS2_PLACEMENT_3D('',#390,#315,#316);
#267=AXIS2_PLACEMENT_3D('',#391,#317,#318);
#268=AXIS2_PLACEMENT_3D('',#392,#319,#320);
#269=AXIS2_PLACEMENT_3D('',#393,#321,#322);
#270=AXIS2_PLACEMENT_3D('',#395,#323,#324);
#271=AXIS2_PLACEMENT_3D('',#397,#325,#326);
#272=AXIS2_PLACEMENT_3D('',#398,#327,#328);
#273=AXIS2_PLACEMENT_3D('',#400,#329,#330);
#274=AXIS2_PLACEMENT_3D('',#402,#331,#332);
#275=AXIS2_PLACEMENT_3D('',#403,#333,#334);
#276=AXIS2_PLACEMENT_3D('',#405,#335,#336);
#277=AXIS2_PLACEMENT_3D('',#406,#337,#338);
#278=AXIS2_PLACEMENT_3D('',#408,#339,#340);
#279=AXIS2_PLACEMENT_3D('',#410,#341,#342);
#280=AXIS2_PLACEMENT_3D('',#411,#343,#344);
#281=AXIS2_PLACEMENT_3D('',#413,#345,#346);
#282=AXIS2_PLACEMENT_3D('',#451,#347,#348);
#283=AXIS2_PLACEMENT_3D('',#452,#349,#350);
#284=AXIS2_PLACEMENT_3D('',#454,#351,#352);
#285=AXIS2_PLACEMENT_3D('',#455,#353,#354);
#286=AXIS2_PLACEMENT_3D('',#457,#355,#356);
#287=AXIS2_PLACEMENT_3D('',#458,#357,#358);
#288=AXIS2_PLACEMENT_3D('',#460,#359,#360);
#289=AXIS2_PLACEMENT_3D('',#461,#361,#362);
#290=AXIS2_PLACEMENT_3D('',#463,#363,#364);
#291=AXIS2_PLACEMENT_3D('',#464,#365,#366);
#292=AXIS2_PLACEMENT_3D('',#465,#367,#368);
#293=AXIS2_PLACEMENT_3D('',#466,#369,#370);
#294=AXIS2_PLACEMENT_3D('',#467,#371,#372);
#295=AXIS2_PLACEMENT_3D('',#468,#373,#374);
#296=AXIS2_PLACEMENT_3D('',#469,#375,#376);
#297=DIRECTION('',(0.,0.,1.));
#298=DIRECTION('',(1.,0.,0.));
#299=DIRECTION('',(-6.12323399573674E-17,-6.73555739531044E-16,-1.));
#300=DIRECTION('',(1.,4.89858719658941E-16,-6.12323399573678E-17));
#301=DIRECTION('',(-6.12323399573674E-17,-6.73555739531044E-16,-1.));
#302=DIRECTION('',(0.,1.,-6.73555739531044E-16));
#303=DIRECTION('',(6.12323399573674E-17,6.73555739531044E-16,1.));
#304=DIRECTION('',(0.,-1.,6.73555739531044E-16));
#305=DIRECTION('',(-6.12323399573674E-17,-6.73555739531044E-16,-1.));
#306=DIRECTION('',(-1.,-4.89858719658941E-16,6.12323399573678E-17));
#307=DIRECTION('',(-6.12323399573674E-17,-6.73555739531044E-16,-1.));
#308=DIRECTION('',(0.,1.,-6.73555739531044E-16));
#309=DIRECTION('',(6.12323399573674E-17,6.73555739531044E-16,1.));
#310=DIRECTION('',(1.,4.89858719658941E-16,-6.12323399573678E-17));
#311=DIRECTION('',(6.12323399573674E-17,6.73555739531044E-16,1.));
#312=DIRECTION('',(0.,-1.,6.73555739531044E-16));
#313=DIRECTION('',(6.12323399573674E-17,6.73555739531044E-16,1.));
#314=DIRECTION('',(0.,-1.,6.73555739531044E-16));
#315=DIRECTION('',(-6.12323399573674E-17,-6.73555739531044E-16,-1.));
#316=DIRECTION('',(0.,1.,-6.73555739531044E-16));
#317=DIRECTION('',(0.,0.,1.));
#318=DIRECTION('',(1.,0.,0.));
#319=DIRECTION('',(6.12323399573674E-17,6.73555739531044E-16,1.));
#320=DIRECTION('',(1.,4.89858719658941E-16,-6.12323399573678E-17));
#321=DIRECTION('',(6.12323399573674E-17,6.73555739531044E-16,1.));
#322=DIRECTION('',(0.,-1.,6.73555739531044E-16));
#323=DIRECTION('',(6.12323399573674E-17,6.73555739531044E-16,1.));
#324=DIRECTION('',(0.,-1.,6.73555739531044E-16));
#325=DIRECTION('',(-6.12323399573674E-17,-6.73555739531044E-16,-1.));
#326=DIRECTION('',(1.,4.89858719658941E-16,-6.12323399573677E-17));
#327=DIRECTION('',(6.12323399573674E-17,6.73555739531044E-16,1.));
#328=DIRECTION('',(0.,-1.,6.73555739531044E-16));
#329=DIRECTION('',(-6.12323399573674E-17,-6.73555739531044E-16,-1.));
#330=DIRECTION('',(0.,1.,-6.73555739531044E-16));
#331=DIRECTION('',(-6.12323399573674E-17,-6.73555739531044E-16,-1.));
#332=DIRECTION('',(-1.,-4.89858719658941E-16,6.12323399573678E-17));
#333=DIRECTION('',(-6.12323399573674E-17,-6.73555739531044E-16,-1.));
#334=DIRECTION('',(0.,1.,-6.73555739531044E-16));
#335=DIRECTION('',(-6.12323399573674E-17,-6.73555739531044E-16,-1.));
#336=DIRECTION('',(1.,4.89858719658941E-16,-6.12323399573678E-17));
#337=DIRECTION('',(6.12323399573674E-17,6.73555739531044E-16,1.));
#338=DIRECTION('',(0.,-1.,6.73555739531044E-16));
#339=DIRECTION('',(6.12323399573674E-17,6.73555739531044E-16,1.));
#340=DIRECTION('',(1.,4.89858719658941E-16,-6.12323399573678E-17));
#341=DIRECTION('',(-6.12323399573674E-17,-6.73555739531044E-16,-1.));
#342=DIRECTION('',(1.,4.89858719658941E-16,-6.12323399573677E-17));
#343=DIRECTION('',(-6.12323399573674E-17,-6.73555739531044E-16,-1.));
#344=DIRECTION('',(0.,1.,-6.73555739531044E-16));
#345=DIRECTION('',(6.12323399573674E-17,6.73555739531044E-16,1.));
#346=DIRECTION('',(0.,-1.,6.73555739531044E-16));
#347=DIRECTION('',(-6.12323399573674E-17,-6.73555739531044E-16,-1.));
#348=DIRECTION('',(-1.,-4.89858719658941E-16,6.12323399573678E-17));
#349=DIRECTION('',(-6.12323399573674E-17,-6.73555739531044E-16,-1.));
#350=DIRECTION('',(0.,1.,-6.73555739531044E-16));
#351=DIRECTION('',(6.12323399573674E-17,6.73555739531044E-16,1.));
#352=DIRECTION('',(1.,4.89858719658941E-16,-6.12323399573678E-17));
#353=DIRECTION('',(6.12323399573674E-17,6.73555739531044E-16,1.));
#354=DIRECTION('',(0.,-1.,6.73555739531044E-16));
#355=DIRECTION('',(-6.12323399573677E-16,1.,-8.95600344456075E-16));
#356=DIRECTION('',(-1.,-6.12323399573677E-16,6.12323399573678E-17));
#357=DIRECTION('',(6.12323399573677E-16,-1.,8.95600344456075E-16));
#358=DIRECTION('',(0.,-8.95600344456075E-16,-1.));
#359=DIRECTION('',(6.12323399573677E-16,-1.,8.95600344456075E-16));
#360=DIRECTION('',(-1.,-6.12323399573677E-16,6.12323399573678E-17));
#361=DIRECTION('',(6.12323399573677E-16,-1.,8.95600344456075E-16));
#362=DIRECTION('',(0.,-8.95600344456075E-16,-1.));
#363=DIRECTION('',(6.12323399573674E-17,6.73555739531044E-16,1.));
#364=DIRECTION('',(0.,-1.,6.73555739531044E-16));
#365=DIRECTION('',(-6.12323399573674E-17,-6.73555739531044E-16,-1.));
#366=DIRECTION('',(0.,1.,-6.73555739531044E-16));
#367=DIRECTION('',(6.12323399573674E-17,6.73555739531044E-16,1.));
#368=DIRECTION('',(0.,-1.,6.73555739531044E-16));
#369=DIRECTION('',(6.12323399573674E-17,6.73555739531044E-16,1.));
#370=DIRECTION('',(0.,-1.,6.73555739531044E-16));
#371=DIRECTION('',(-6.12323399573674E-17,-6.73555739531044E-16,-1.));
#372=DIRECTION('',(0.,1.,-6.73555739531044E-16));
#373=DIRECTION('',(6.12323399573677E-16,-1.,8.95600344456075E-16));
#374=DIRECTION('',(0.,-8.95600344456075E-16,-1.));
#375=DIRECTION('',(0.,0.,1.));
#376=DIRECTION('',(1.,0.,0.));
#377=CARTESIAN_POINT('',(0.,0.,0.));
#378=CARTESIAN_POINT('',(4459.88727380966,-2628.5457893417,61.));
#379=CARTESIAN_POINT('',(4459.88727380966,-2628.5457893417,0.300000000000307));
#380=CARTESIAN_POINT('',(4459.88727380966,-2603.5457893417,0.30000000000029));
#381=CARTESIAN_POINT('',(4459.88727380966,-2628.5457893417,121.7));
#382=CARTESIAN_POINT('',(4459.88727380966,-2653.5457893417,121.7));
#383=CARTESIAN_POINT('',(4459.88727380966,-2628.5457893417,0.));
#384=CARTESIAN_POINT('',(4459.88727380966,-2628.5457893417,0.));
#385=CARTESIAN_POINT('',(4459.88727380966,-2603.8457893417,-1.66368267664166E-14));
#386=CARTESIAN_POINT('',(4459.88727380966,-2628.5457893417,122.));
#387=CARTESIAN_POINT('',(4459.88727380966,-2628.5457893417,122.));
#388=CARTESIAN_POINT('',(4459.88727380966,-2653.24578934169,122.));
#389=CARTESIAN_POINT('',(4459.88727380966,-2628.5457893417,121.7));
#390=CARTESIAN_POINT('',(4459.88727380966,-2628.5457893417,0.300000000000307));
#391=CARTESIAN_POINT('',(-4459.88727380966,2562.69578934169,-91.9050632911382));
#392=CARTESIAN_POINT('',(4459.88727380966,-2628.5457893417,146.));
#393=CARTESIAN_POINT('',(4459.88727380966,-2628.5457893417,146.));
#394=CARTESIAN_POINT('',(4459.88727380966,-2635.5957893417,146.));
#395=CARTESIAN_POINT('',(4459.88727380966,-2628.5457893417,146.));
#396=CARTESIAN_POINT('',(4459.88727380966,-2645.24578934169,146.));
#397=CARTESIAN_POINT('',(4459.88727380966,-2628.5457893417,134.));
#398=CARTESIAN_POINT('',(4459.88727380966,-2628.5457893417,145.7));
#399=CARTESIAN_POINT('',(4459.88727380966,-2645.5457893417,145.7));
#400=CARTESIAN_POINT('',(4459.88727380966,-2628.5457893417,122.3));
#401=CARTESIAN_POINT('',(4459.88727380966,-2611.5457893417,122.3));
#402=CARTESIAN_POINT('',(4459.88727380966,-2628.5457893417,122.));
#403=CARTESIAN_POINT('',(4459.88727380966,-2628.5457893417,122.));
#404=CARTESIAN_POINT('',(4459.88727380966,-2611.8457893417,122.));
#405=CARTESIAN_POINT('',(4459.88727380966,-2628.5457893417,154.));
#406=CARTESIAN_POINT('',(4459.88727380966,-2628.5457893417,146.3));
#407=CARTESIAN_POINT('',(4459.88727380966,-2635.29578934169,146.3));
#408=CARTESIAN_POINT('',(4459.88727380966,-2628.5457893417,162.));
#409=CARTESIAN_POINT('',(4466.63727380966,-2628.5457893417,162.));
#410=CARTESIAN_POINT('',(4459.88727380966,-2628.5457893417,173.));
#411=CARTESIAN_POINT('',(4459.88727380966,-2628.5457893417,162.3));
#412=CARTESIAN_POINT('',(4459.88727380966,-2619.5457893417,162.3));
#413=CARTESIAN_POINT('',(4459.88727380966,-2628.5457893417,183.7));
#414=CARTESIAN_POINT('',(4459.88727380966,-2637.5457893417,183.7));
#415=CARTESIAN_POINT('',(4462.35421090334,-2637.20127289658,178.500242913767));
#416=CARTESIAN_POINT('',(4462.40256416799,-2637.18712912496,178.016365215035));
#417=CARTESIAN_POINT('',(4462.35900554259,-2637.19984808144,177.533833818419));
#418=CARTESIAN_POINT('',(4462.22167729017,-2637.2384878324,177.058640395113));
#419=CARTESIAN_POINT('',(4461.98713717721,-2637.29887529196,176.613919453676));
#420=CARTESIAN_POINT('',(4461.68368574205,-2637.366861799,176.239854816577));
#421=CARTESIAN_POINT('',(4461.31677208645,-2637.43466982088,175.929577917144));
#422=CARTESIAN_POINT('',(4460.87766512139,-2637.49525277218,175.685921222679));
#423=CARTESIAN_POINT('',(4460.39596535758,-2637.53579954842,175.535688292719));
#424=CARTESIAN_POINT('',(4459.91287979901,-2637.55003882229,175.484836209714));
#425=CARTESIAN_POINT('',(4459.42991912861,-2637.53856230113,175.525751432835));
#426=CARTESIAN_POINT('',(4458.94611462727,-2637.50063557332,175.665455592222));
#427=CARTESIAN_POINT('',(4458.50083766983,-2637.44159679063,175.900356838726));
#428=CARTESIAN_POINT('',(4458.12678800827,-2637.37418748796,176.203922573972));
#429=CARTESIAN_POINT('',(4457.81660497812,-2637.30590872574,176.570870841069));
#430=CARTESIAN_POINT('',(4457.57310145088,-2637.24397852984,177.009862533472));
#431=CARTESIAN_POINT('',(4457.42295074257,-2637.20200748938,177.491401774522));
#432=CARTESIAN_POINT('',(4457.37212271395,-2637.18717039257,177.974374031457));
#433=CARTESIAN_POINT('',(4457.41301279355,-2637.1991310421,178.457267101332));
#434=CARTESIAN_POINT('',(4457.55265410133,-2637.23843267714,178.940933855323));
#435=CARTESIAN_POINT('',(4457.78739676886,-2637.29887202135,179.386066628785));
#436=CARTESIAN_POINT('',(4458.09086096663,-2637.36686167796,179.760143546399));
#437=CARTESIAN_POINT('',(4458.45777549954,-2637.43466980404,180.070422298961));
#438=CARTESIAN_POINT('',(4458.8968824885,-2637.49525277432,180.314078709398));
#439=CARTESIAN_POINT('',(4459.37858226305,-2637.53579954783,180.464311727583));
#440=CARTESIAN_POINT('',(4459.861667822,-2637.55003882228,180.515163776445));
#441=CARTESIAN_POINT('',(4460.34462848272,-2637.53856230175,180.474248602041));
#442=CARTESIAN_POINT('',(4460.82843301949,-2637.50063557098,180.33454428229));
#443=CARTESIAN_POINT('',(4461.27370984864,-2637.44159679927,180.099643628559));
#444=CARTESIAN_POINT('',(4461.64775999287,-2637.37418745483,179.796075679351));
#445=CARTESIAN_POINT('',(4461.9579412215,-2637.30590884828,179.429135672943));
#446=CARTESIAN_POINT('',(4462.20145145966,-2637.24397807414,178.990113161708));
#447=CARTESIAN_POINT('',(4462.35421090334,-2637.20127289658,178.500242913767));
#448=CARTESIAN_POINT('',(4462.40256416799,-2637.18712912496,178.016365215035));
#449=CARTESIAN_POINT('',(4462.35900554259,-2637.19984808144,177.533833818419));
#450=CARTESIAN_POINT('',(4462.38727380966,-2637.1915975746,178.));
#451=CARTESIAN_POINT('',(4459.88727380966,-2628.5457893417,162.));
#452=CARTESIAN_POINT('',(4459.88727380966,-2628.5457893417,162.));
#453=CARTESIAN_POINT('',(4459.88727380966,-2619.8457893417,162.));
#454=CARTESIAN_POINT('',(4459.88727380966,-2628.5457893417,184.));
#455=CARTESIAN_POINT('',(4459.88727380966,-2628.5457893417,184.));
#456=CARTESIAN_POINT('',(4459.88727380966,-2637.24578934169,184.));
#457=CARTESIAN_POINT('',(4459.88727380966,-2655.7957893417,178.));
#458=CARTESIAN_POINT('',(4459.88727380966,-2673.74578934169,178.));
#459=CARTESIAN_POINT('',(4459.88727380966,-2673.74578934169,175.5));
#460=CARTESIAN_POINT('',(4459.88727380966,-2674.0457893417,178.));
#461=CARTESIAN_POINT('',(4459.88727380966,-2674.0457893417,178.));
#462=CARTESIAN_POINT('',(4459.88727380966,-2674.0457893417,175.8));
#463=CARTESIAN_POINT('',(4459.88727380966,-2628.5457893417,183.7));
#464=CARTESIAN_POINT('',(4459.88727380966,-2628.5457893417,122.3));
#465=CARTESIAN_POINT('',(4459.88727380966,-2628.5457893417,145.7));
#466=CARTESIAN_POINT('',(4459.88727380966,-2628.5457893417,146.3));
#467=CARTESIAN_POINT('',(4459.88727380966,-2628.5457893417,162.3));
#468=CARTESIAN_POINT('',(4459.88727380966,-2673.74578934169,178.));
#469=CARTESIAN_POINT('',(-4459.88727380966,2562.69578934169,-91.9050632911382));
#470=MECHANICAL_DESIGN_GEOMETRIC_PRESENTATION_REPRESENTATION('',(#234,#235),
#471);
#471=(
GEOMETRIC_REPRESENTATION_CONTEXT(3)
GLOBAL_UNCERTAINTY_ASSIGNED_CONTEXT((#474))
GLOBAL_UNIT_ASSIGNED_CONTEXT((#479,#478,#477))
REPRESENTATION_CONTEXT('CBA10','TOP_LEVEL_ASSEMBLY_PART')
);
#472=(
GEOMETRIC_REPRESENTATION_CONTEXT(3)
GLOBAL_UNCERTAINTY_ASSIGNED_CONTEXT((#475))
GLOBAL_UNIT_ASSIGNED_CONTEXT((#479,#478,#477))
REPRESENTATION_CONTEXT('PORTA DISPENSER A MURO','COMPONENT_PART')
);
#473=(
GEOMETRIC_REPRESENTATION_CONTEXT(3)
GLOBAL_UNCERTAINTY_ASSIGNED_CONTEXT((#476))
GLOBAL_UNIT_ASSIGNED_CONTEXT((#479,#478,#477))
REPRESENTATION_CONTEXT('PORTA DISPENSER A MURO_0','COMPONENT_PART')
);
#474=UNCERTAINTY_MEASURE_WITH_UNIT(LENGTH_MEASURE(0.005),#479,
'DISTANCE_ACCURACY_VALUE','Maximum Tolerance applied to model');
#475=UNCERTAINTY_MEASURE_WITH_UNIT(LENGTH_MEASURE(0.005),#479,
'DISTANCE_ACCURACY_VALUE','Maximum Tolerance applied to model');
#476=UNCERTAINTY_MEASURE_WITH_UNIT(LENGTH_MEASURE(0.005),#479,
'DISTANCE_ACCURACY_VALUE','Maximum Tolerance applied to model');
#477=(
NAMED_UNIT(*)
SI_UNIT($,.STERADIAN.)
SOLID_ANGLE_UNIT()
);
#478=(
NAMED_UNIT(*)
PLANE_ANGLE_UNIT()
SI_UNIT($,.RADIAN.)
);
#479=(
LENGTH_UNIT()
NAMED_UNIT(*)
SI_UNIT(.MILLI.,.METRE.)
);
#480=PRODUCT_DEFINITION_SHAPE('','',#485);
#481=PRODUCT_DEFINITION_SHAPE('','',#486);
#482=PRODUCT_DEFINITION_SHAPE(' ','NAUO PRDDFN',#21);
#483=PRODUCT_DEFINITION_SHAPE('','',#487);
#484=PRODUCT_DEFINITION_SHAPE(' ','NAUO PRDDFN',#22);
#485=PRODUCT_DEFINITION('','',#491,#488);
#486=PRODUCT_DEFINITION('','',#492,#489);
#487=PRODUCT_DEFINITION('','',#493,#490);
#488=PRODUCT_DEFINITION_CONTEXT('',#507,'design');
#489=PRODUCT_DEFINITION_CONTEXT('',#507,'design');
#490=PRODUCT_DEFINITION_CONTEXT('',#507,'design');
#491=PRODUCT_DEFINITION_FORMATION_WITH_SPECIFIED_SOURCE('','',#497,
 .NOT_KNOWN.);
#492=PRODUCT_DEFINITION_FORMATION_WITH_SPECIFIED_SOURCE('','',#498,
 .NOT_KNOWN.);
#493=PRODUCT_DEFINITION_FORMATION_WITH_SPECIFIED_SOURCE('','',#499,
 .NOT_KNOWN.);
#494=PRODUCT_RELATED_PRODUCT_CATEGORY('','',(#497));
#495=PRODUCT_RELATED_PRODUCT_CATEGORY('','',(#498));
#496=PRODUCT_RELATED_PRODUCT_CATEGORY('','',(#499));
#497=PRODUCT('CBA10','CBA10','CBA10',(#503));
#498=PRODUCT('PORTA DISPENSER A MURO','PORTA DISPENSER A MURO',
'PORTA DISPENSER A MURO',(#504));
#499=PRODUCT('PORTA DISPENSER A MURO_0','PORTA DISPENSER A MURO_0',
'PORTA DISPENSER A MURO_0',(#505));
#500=PRODUCT_CATEGORY('','');
#501=PRODUCT_CATEGORY('','');
#502=PRODUCT_CATEGORY('','');
#503=PRODUCT_CONTEXT('',#507,'mechanical');
#504=PRODUCT_CONTEXT('',#507,'mechanical');
#505=PRODUCT_CONTEXT('',#507,'mechanical');
#506=APPLICATION_PROTOCOL_DEFINITION('international standard',
'automotive_design',2010,#507);
#507=APPLICATION_CONTEXT(
'core data for automotive mechanical design processes');
ENDSEC;
END-ISO-10303-21;
