ISO-10303-21;
HEADER;
/* Generated by software containing ST-Developer
 * from STEP Tools, Inc. (www.steptools.com) 
 */
/* OPTION: strings as raw bytes, not using required /X/ escapes */

FILE_DESCRIPTION(
/* description */ ('Unknown'),
/* implementation_level */ '2;1');

FILE_NAME(
/* name */ 'AR453',
/* time_stamp */ '2017-01-17T08:05:22+01:00',
/* author */ ('Unknown'),
/* organization */ ('Unknown'),
/* preprocessor_version */ 'ST-DEVELOPER v16.7',
/* originating_system */ 'DEX',
/* authorisation */ $);

FILE_SCHEMA (('AUTOMOTIVE_DESIGN {1 0 10303 214 3 1 1}'));
ENDSEC;

DATA;
#10=PROPERTY_DEFINITION_REPRESENTATION(#14,#12);
#11=PROPERTY_DEFINITION_REPRESENTATION(#15,#13);
#12=REPRESENTATION('',(#16),#680);
#13=REPRESENTATION('',(#17),#680);
#14=PROPERTY_DEFINITION('pmi validation property','',#689);
#15=PROPERTY_DEFINITION('pmi validation property','',#689);
#16=VALUE_REPRESENTATION_ITEM('number of annotations',COUNT_MEASURE(0.));
#17=VALUE_REPRESENTATION_ITEM('number of views',COUNT_MEASURE(0.));
#18=CONTEXT_DEPENDENT_SHAPE_REPRESENTATION(#22,#691);
#19=CONTEXT_DEPENDENT_SHAPE_REPRESENTATION(#23,#693);
#20=NEXT_ASSEMBLY_USAGE_OCCURRENCE('AR453-01','AR453-01','AR453-01',#694,
#695,'');
#21=NEXT_ASSEMBLY_USAGE_OCCURRENCE('AR452-02','AR452-02','AR452-02',#694,
#696,'');
#22=(
REPRESENTATION_RELATIONSHIP(' ',' ',#430,#431)
REPRESENTATION_RELATIONSHIP_WITH_TRANSFORMATION(#24)
SHAPE_REPRESENTATION_RELATIONSHIP()
);
#23=(
REPRESENTATION_RELATIONSHIP(' ',' ',#432,#431)
REPRESENTATION_RELATIONSHIP_WITH_TRANSFORMATION(#25)
SHAPE_REPRESENTATION_RELATIONSHIP()
);
#24=ITEM_DEFINED_TRANSFORMATION(' ',' ',#433,#462);
#25=ITEM_DEFINED_TRANSFORMATION(' ',' ',#433,#487);
#26=SHAPE_REPRESENTATION_RELATIONSHIP('','',#430,#28);
#27=SHAPE_REPRESENTATION_RELATIONSHIP('','',#432,#29);
#28=ADVANCED_BREP_SHAPE_REPRESENTATION('',(#425),#681);
#29=ADVANCED_BREP_SHAPE_REPRESENTATION('',(#426),#682);
#30=CONICAL_SURFACE('',#455,9.4775,0.785398163397447);
#31=CONICAL_SURFACE('',#456,10.4775,0.785398163397447);
#32=CONICAL_SURFACE('',#460,8.1,0.785398163397448);
#33=CONICAL_SURFACE('',#461,8.1,0.785398163397448);
#34=TOROIDAL_SURFACE('',#453,12.2,0.2);
#35=TOROIDAL_SURFACE('',#454,12.2,0.2);
#36=TOROIDAL_SURFACE('',#483,24.8,0.2);
#37=TOROIDAL_SURFACE('',#484,12.8,0.2);
#38=TOROIDAL_SURFACE('',#485,12.8,0.2);
#39=TOROIDAL_SURFACE('',#486,24.8,0.2);
#40=PLANE('',#437);
#41=PLANE('',#443);
#42=PLANE('',#446);
#43=PLANE('',#450);
#44=PLANE('',#472);
#45=PLANE('',#475);
#46=PLANE('',#481);
#47=PLANE('',#482);
#48=ORIENTED_EDGE('',*,*,#100,.T.);
#49=ORIENTED_EDGE('',*,*,#101,.F.);
#50=ORIENTED_EDGE('',*,*,#102,.T.);
#51=ORIENTED_EDGE('',*,*,#103,.T.);
#52=ORIENTED_EDGE('',*,*,#104,.T.);
#53=ORIENTED_EDGE('',*,*,#105,.T.);
#54=ORIENTED_EDGE('',*,*,#106,.T.);
#55=ORIENTED_EDGE('',*,*,#107,.F.);
#56=ORIENTED_EDGE('',*,*,#108,.T.);
#57=ORIENTED_EDGE('',*,*,#101,.T.);
#58=ORIENTED_EDGE('',*,*,#109,.T.);
#59=ORIENTED_EDGE('',*,*,#107,.T.);
#60=ORIENTED_EDGE('',*,*,#110,.T.);
#61=ORIENTED_EDGE('',*,*,#111,.T.);
#62=ORIENTED_EDGE('',*,*,#108,.F.);
#63=ORIENTED_EDGE('',*,*,#105,.F.);
#64=ORIENTED_EDGE('',*,*,#104,.F.);
#65=ORIENTED_EDGE('',*,*,#106,.F.);
#66=ORIENTED_EDGE('',*,*,#109,.F.);
#67=ORIENTED_EDGE('',*,*,#111,.F.);
#68=ORIENTED_EDGE('',*,*,#103,.F.);
#69=ORIENTED_EDGE('',*,*,#100,.F.);
#70=ORIENTED_EDGE('',*,*,#112,.T.);
#71=ORIENTED_EDGE('',*,*,#113,.T.);
#72=ORIENTED_EDGE('',*,*,#110,.F.);
#73=ORIENTED_EDGE('',*,*,#113,.F.);
#74=ORIENTED_EDGE('',*,*,#102,.F.);
#75=ORIENTED_EDGE('',*,*,#112,.F.);
#76=ORIENTED_EDGE('',*,*,#114,.T.);
#77=ORIENTED_EDGE('',*,*,#115,.T.);
#78=ORIENTED_EDGE('',*,*,#116,.T.);
#79=ORIENTED_EDGE('',*,*,#117,.F.);
#80=ORIENTED_EDGE('',*,*,#118,.T.);
#81=ORIENTED_EDGE('',*,*,#119,.T.);
#82=ORIENTED_EDGE('',*,*,#120,.T.);
#83=ORIENTED_EDGE('',*,*,#121,.T.);
#84=ORIENTED_EDGE('',*,*,#122,.T.);
#85=ORIENTED_EDGE('',*,*,#123,.T.);
#86=ORIENTED_EDGE('',*,*,#124,.T.);
#87=ORIENTED_EDGE('',*,*,#125,.F.);
#88=ORIENTED_EDGE('',*,*,#117,.T.);
#89=ORIENTED_EDGE('',*,*,#124,.F.);
#90=ORIENTED_EDGE('',*,*,#115,.F.);
#91=ORIENTED_EDGE('',*,*,#125,.T.);
#92=ORIENTED_EDGE('',*,*,#123,.F.);
#93=ORIENTED_EDGE('',*,*,#119,.F.);
#94=ORIENTED_EDGE('',*,*,#121,.F.);
#95=ORIENTED_EDGE('',*,*,#116,.F.);
#96=ORIENTED_EDGE('',*,*,#114,.F.);
#97=ORIENTED_EDGE('',*,*,#122,.F.);
#98=ORIENTED_EDGE('',*,*,#118,.F.);
#99=ORIENTED_EDGE('',*,*,#120,.F.);
#100=EDGE_CURVE('',#126,#126,#152,.T.);
#101=EDGE_CURVE('',#127,#127,#153,.T.);
#102=EDGE_CURVE('',#128,#128,#154,.T.);
#103=EDGE_CURVE('',#129,#129,#155,.F.);
#104=EDGE_CURVE('',#130,#130,#156,.F.);
#105=EDGE_CURVE('',#131,#131,#157,.T.);
#106=EDGE_CURVE('',#132,#132,#158,.T.);
#107=EDGE_CURVE('',#133,#133,#159,.T.);
#108=EDGE_CURVE('',#134,#134,#160,.F.);
#109=EDGE_CURVE('',#135,#135,#161,.F.);
#110=EDGE_CURVE('',#136,#136,#162,.T.);
#111=EDGE_CURVE('',#137,#137,#163,.T.);
#112=EDGE_CURVE('',#138,#138,#164,.T.);
#113=EDGE_CURVE('',#139,#139,#165,.T.);
#114=EDGE_CURVE('',#140,#140,#166,.F.);
#115=EDGE_CURVE('',#141,#141,#167,.T.);
#116=EDGE_CURVE('',#142,#142,#168,.T.);
#117=EDGE_CURVE('',#143,#143,#169,.T.);
#118=EDGE_CURVE('',#144,#144,#170,.F.);
#119=EDGE_CURVE('',#145,#145,#171,.T.);
#120=EDGE_CURVE('',#146,#146,#172,.T.);
#121=EDGE_CURVE('',#147,#147,#173,.F.);
#122=EDGE_CURVE('',#148,#148,#174,.T.);
#123=EDGE_CURVE('',#149,#149,#175,.F.);
#124=EDGE_CURVE('',#150,#150,#176,.T.);
#125=EDGE_CURVE('',#151,#151,#177,.T.);
#126=VERTEX_POINT('',#601);
#127=VERTEX_POINT('',#603);
#128=VERTEX_POINT('',#606);
#129=VERTEX_POINT('',#608);
#130=VERTEX_POINT('',#611);
#131=VERTEX_POINT('',#613);
#132=VERTEX_POINT('',#616);
#133=VERTEX_POINT('',#618);
#134=VERTEX_POINT('',#621);
#135=VERTEX_POINT('',#624);
#136=VERTEX_POINT('',#627);
#137=VERTEX_POINT('',#629);
#138=VERTEX_POINT('',#636);
#139=VERTEX_POINT('',#638);
#140=VERTEX_POINT('',#644);
#141=VERTEX_POINT('',#646);
#142=VERTEX_POINT('',#649);
#143=VERTEX_POINT('',#651);
#144=VERTEX_POINT('',#654);
#145=VERTEX_POINT('',#656);
#146=VERTEX_POINT('',#659);
#147=VERTEX_POINT('',#661);
#148=VERTEX_POINT('',#664);
#149=VERTEX_POINT('',#666);
#150=VERTEX_POINT('',#669);
#151=VERTEX_POINT('',#671);
#152=CIRCLE('',#435,10.4775);
#153=CIRCLE('',#436,10.4775);
#154=CIRCLE('',#438,8.1);
#155=CIRCLE('',#439,9.4775);
#156=CIRCLE('',#441,12.4);
#157=CIRCLE('',#442,12.4);
#158=CIRCLE('',#444,12.2);
#159=CIRCLE('',#445,10.4775);
#160=CIRCLE('',#447,12.2);
#161=CIRCLE('',#449,10.4775);
#162=CIRCLE('',#451,8.1);
#163=CIRCLE('',#452,9.4775);
#164=CIRCLE('',#458,7.5);
#165=CIRCLE('',#459,7.5);
#166=CIRCLE('',#464,12.6);
#167=CIRCLE('',#465,12.6);
#168=CIRCLE('',#467,12.6);
#169=CIRCLE('',#468,12.6);
#170=CIRCLE('',#470,25.);
#171=CIRCLE('',#471,25.);
#172=CIRCLE('',#473,24.8);
#173=CIRCLE('',#474,12.8);
#174=CIRCLE('',#476,12.8);
#175=CIRCLE('',#477,24.8);
#176=CIRCLE('',#479,15.);
#177=CIRCLE('',#480,15.);
#178=EDGE_LOOP('',(#48));
#179=EDGE_LOOP('',(#49));
#180=EDGE_LOOP('',(#50));
#181=EDGE_LOOP('',(#51));
#182=EDGE_LOOP('',(#52));
#183=EDGE_LOOP('',(#53));
#184=EDGE_LOOP('',(#54));
#185=EDGE_LOOP('',(#55));
#186=EDGE_LOOP('',(#56));
#187=EDGE_LOOP('',(#57));
#188=EDGE_LOOP('',(#58));
#189=EDGE_LOOP('',(#59));
#190=EDGE_LOOP('',(#60));
#191=EDGE_LOOP('',(#61));
#192=EDGE_LOOP('',(#62));
#193=EDGE_LOOP('',(#63));
#194=EDGE_LOOP('',(#64));
#195=EDGE_LOOP('',(#65));
#196=EDGE_LOOP('',(#66));
#197=EDGE_LOOP('',(#67));
#198=EDGE_LOOP('',(#68));
#199=EDGE_LOOP('',(#69));
#200=EDGE_LOOP('',(#70));
#201=EDGE_LOOP('',(#71));
#202=EDGE_LOOP('',(#72));
#203=EDGE_LOOP('',(#73));
#204=EDGE_LOOP('',(#74));
#205=EDGE_LOOP('',(#75));
#206=EDGE_LOOP('',(#76));
#207=EDGE_LOOP('',(#77));
#208=EDGE_LOOP('',(#78));
#209=EDGE_LOOP('',(#79));
#210=EDGE_LOOP('',(#80));
#211=EDGE_LOOP('',(#81));
#212=EDGE_LOOP('',(#82));
#213=EDGE_LOOP('',(#83));
#214=EDGE_LOOP('',(#84));
#215=EDGE_LOOP('',(#85));
#216=EDGE_LOOP('',(#86));
#217=EDGE_LOOP('',(#87));
#218=EDGE_LOOP('',(#88));
#219=EDGE_LOOP('',(#89));
#220=EDGE_LOOP('',(#90));
#221=EDGE_LOOP('',(#91));
#222=EDGE_LOOP('',(#92));
#223=EDGE_LOOP('',(#93));
#224=EDGE_LOOP('',(#94));
#225=EDGE_LOOP('',(#95));
#226=EDGE_LOOP('',(#96));
#227=EDGE_LOOP('',(#97));
#228=EDGE_LOOP('',(#98));
#229=EDGE_LOOP('',(#99));
#230=FACE_BOUND('',#178,.T.);
#231=FACE_BOUND('',#179,.T.);
#232=FACE_BOUND('',#180,.T.);
#233=FACE_BOUND('',#181,.T.);
#234=FACE_BOUND('',#182,.T.);
#235=FACE_BOUND('',#183,.T.);
#236=FACE_BOUND('',#184,.T.);
#237=FACE_BOUND('',#185,.T.);
#238=FACE_BOUND('',#186,.T.);
#239=FACE_BOUND('',#187,.T.);
#240=FACE_BOUND('',#188,.T.);
#241=FACE_BOUND('',#189,.T.);
#242=FACE_BOUND('',#190,.T.);
#243=FACE_BOUND('',#191,.T.);
#244=FACE_BOUND('',#192,.T.);
#245=FACE_BOUND('',#193,.T.);
#246=FACE_BOUND('',#194,.T.);
#247=FACE_BOUND('',#195,.T.);
#248=FACE_BOUND('',#196,.T.);
#249=FACE_BOUND('',#197,.T.);
#250=FACE_BOUND('',#198,.T.);
#251=FACE_BOUND('',#199,.T.);
#252=FACE_BOUND('',#200,.T.);
#253=FACE_BOUND('',#201,.T.);
#254=FACE_BOUND('',#202,.T.);
#255=FACE_BOUND('',#203,.T.);
#256=FACE_BOUND('',#204,.T.);
#257=FACE_BOUND('',#205,.T.);
#258=FACE_BOUND('',#206,.T.);
#259=FACE_BOUND('',#207,.T.);
#260=FACE_BOUND('',#208,.T.);
#261=FACE_BOUND('',#209,.T.);
#262=FACE_BOUND('',#210,.T.);
#263=FACE_BOUND('',#211,.T.);
#264=FACE_BOUND('',#212,.T.);
#265=FACE_BOUND('',#213,.T.);
#266=FACE_BOUND('',#214,.T.);
#267=FACE_BOUND('',#215,.T.);
#268=FACE_BOUND('',#216,.T.);
#269=FACE_BOUND('',#217,.T.);
#270=FACE_BOUND('',#218,.T.);
#271=FACE_BOUND('',#219,.T.);
#272=FACE_BOUND('',#220,.T.);
#273=FACE_BOUND('',#221,.T.);
#274=FACE_BOUND('',#222,.T.);
#275=FACE_BOUND('',#223,.T.);
#276=FACE_BOUND('',#224,.T.);
#277=FACE_BOUND('',#225,.T.);
#278=FACE_BOUND('',#226,.T.);
#279=FACE_BOUND('',#227,.T.);
#280=FACE_BOUND('',#228,.T.);
#281=FACE_BOUND('',#229,.T.);
#282=CYLINDRICAL_SURFACE('',#434,10.4775);
#283=CYLINDRICAL_SURFACE('',#440,12.4);
#284=CYLINDRICAL_SURFACE('',#448,10.4775);
#285=CYLINDRICAL_SURFACE('',#457,7.5);
#286=CYLINDRICAL_SURFACE('',#463,12.6);
#287=CYLINDRICAL_SURFACE('',#466,12.6);
#288=CYLINDRICAL_SURFACE('',#469,25.);
#289=CYLINDRICAL_SURFACE('',#478,15.);
#290=STYLED_ITEM('',(#305),#397);
#291=STYLED_ITEM('',(#306),#398);
#292=STYLED_ITEM('',(#307),#399);
#293=STYLED_ITEM('',(#308),#400);
#294=STYLED_ITEM('',(#309),#401);
#295=STYLED_ITEM('',(#310),#402);
#296=STYLED_ITEM('',(#311),#403);
#297=STYLED_ITEM('',(#312),#404);
#298=STYLED_ITEM('',(#313),#405);
#299=STYLED_ITEM('',(#314),#406);
#300=STYLED_ITEM('',(#315),#407);
#301=STYLED_ITEM('',(#316),#408);
#302=STYLED_ITEM('',(#317),#409);
#303=STYLED_ITEM('',(#318),#410);
#304=STYLED_ITEM('',(#319),#426);
#305=PRESENTATION_STYLE_ASSIGNMENT((#320));
#306=PRESENTATION_STYLE_ASSIGNMENT((#321));
#307=PRESENTATION_STYLE_ASSIGNMENT((#322));
#308=PRESENTATION_STYLE_ASSIGNMENT((#323));
#309=PRESENTATION_STYLE_ASSIGNMENT((#324));
#310=PRESENTATION_STYLE_ASSIGNMENT((#325));
#311=PRESENTATION_STYLE_ASSIGNMENT((#326));
#312=PRESENTATION_STYLE_ASSIGNMENT((#327));
#313=PRESENTATION_STYLE_ASSIGNMENT((#328));
#314=PRESENTATION_STYLE_ASSIGNMENT((#329));
#315=PRESENTATION_STYLE_ASSIGNMENT((#330));
#316=PRESENTATION_STYLE_ASSIGNMENT((#331));
#317=PRESENTATION_STYLE_ASSIGNMENT((#332));
#318=PRESENTATION_STYLE_ASSIGNMENT((#333));
#319=PRESENTATION_STYLE_ASSIGNMENT((#334));
#320=SURFACE_STYLE_USAGE(.BOTH.,#335);
#321=SURFACE_STYLE_USAGE(.BOTH.,#336);
#322=SURFACE_STYLE_USAGE(.BOTH.,#337);
#323=SURFACE_STYLE_USAGE(.BOTH.,#338);
#324=SURFACE_STYLE_USAGE(.BOTH.,#339);
#325=SURFACE_STYLE_USAGE(.BOTH.,#340);
#326=SURFACE_STYLE_USAGE(.BOTH.,#341);
#327=SURFACE_STYLE_USAGE(.BOTH.,#342);
#328=SURFACE_STYLE_USAGE(.BOTH.,#343);
#329=SURFACE_STYLE_USAGE(.BOTH.,#344);
#330=SURFACE_STYLE_USAGE(.BOTH.,#345);
#331=SURFACE_STYLE_USAGE(.BOTH.,#346);
#332=SURFACE_STYLE_USAGE(.BOTH.,#347);
#333=SURFACE_STYLE_USAGE(.BOTH.,#348);
#334=SURFACE_STYLE_USAGE(.BOTH.,#349);
#335=SURFACE_SIDE_STYLE('',(#350));
#336=SURFACE_SIDE_STYLE('',(#351));
#337=SURFACE_SIDE_STYLE('',(#352));
#338=SURFACE_SIDE_STYLE('',(#353));
#339=SURFACE_SIDE_STYLE('',(#354));
#340=SURFACE_SIDE_STYLE('',(#355));
#341=SURFACE_SIDE_STYLE('',(#356));
#342=SURFACE_SIDE_STYLE('',(#357));
#343=SURFACE_SIDE_STYLE('',(#358));
#344=SURFACE_SIDE_STYLE('',(#359));
#345=SURFACE_SIDE_STYLE('',(#360));
#346=SURFACE_SIDE_STYLE('',(#361));
#347=SURFACE_SIDE_STYLE('',(#362));
#348=SURFACE_SIDE_STYLE('',(#363));
#349=SURFACE_SIDE_STYLE('',(#364));
#350=SURFACE_STYLE_FILL_AREA(#365);
#351=SURFACE_STYLE_FILL_AREA(#366);
#352=SURFACE_STYLE_FILL_AREA(#367);
#353=SURFACE_STYLE_FILL_AREA(#368);
#354=SURFACE_STYLE_FILL_AREA(#369);
#355=SURFACE_STYLE_FILL_AREA(#370);
#356=SURFACE_STYLE_FILL_AREA(#371);
#357=SURFACE_STYLE_FILL_AREA(#372);
#358=SURFACE_STYLE_FILL_AREA(#373);
#359=SURFACE_STYLE_FILL_AREA(#374);
#360=SURFACE_STYLE_FILL_AREA(#375);
#361=SURFACE_STYLE_FILL_AREA(#376);
#362=SURFACE_STYLE_FILL_AREA(#377);
#363=SURFACE_STYLE_FILL_AREA(#378);
#364=SURFACE_STYLE_FILL_AREA(#379);
#365=FILL_AREA_STYLE('',(#380));
#366=FILL_AREA_STYLE('',(#381));
#367=FILL_AREA_STYLE('',(#382));
#368=FILL_AREA_STYLE('',(#383));
#369=FILL_AREA_STYLE('',(#384));
#370=FILL_AREA_STYLE('',(#385));
#371=FILL_AREA_STYLE('',(#386));
#372=FILL_AREA_STYLE('',(#387));
#373=FILL_AREA_STYLE('',(#388));
#374=FILL_AREA_STYLE('',(#389));
#375=FILL_AREA_STYLE('',(#390));
#376=FILL_AREA_STYLE('',(#391));
#377=FILL_AREA_STYLE('',(#392));
#378=FILL_AREA_STYLE('',(#393));
#379=FILL_AREA_STYLE('',(#394));
#380=FILL_AREA_STYLE_COLOUR('',#395);
#381=FILL_AREA_STYLE_COLOUR('',#396);
#382=FILL_AREA_STYLE_COLOUR('',#396);
#383=FILL_AREA_STYLE_COLOUR('',#396);
#384=FILL_AREA_STYLE_COLOUR('',#396);
#385=FILL_AREA_STYLE_COLOUR('',#395);
#386=FILL_AREA_STYLE_COLOUR('',#396);
#387=FILL_AREA_STYLE_COLOUR('',#396);
#388=FILL_AREA_STYLE_COLOUR('',#396);
#389=FILL_AREA_STYLE_COLOUR('',#396);
#390=FILL_AREA_STYLE_COLOUR('',#396);
#391=FILL_AREA_STYLE_COLOUR('',#396);
#392=FILL_AREA_STYLE_COLOUR('',#396);
#393=FILL_AREA_STYLE_COLOUR('',#396);
#394=FILL_AREA_STYLE_COLOUR('',#396);
#395=COLOUR_RGB('',0.1875,0.75,0.581249892711639);
#396=COLOUR_RGB('',0.74117648601532,0.776470601558685,0.800000011920929);
#397=ADVANCED_FACE('',(#230,#231),#282,.T.);
#398=ADVANCED_FACE('',(#232,#233),#40,.F.);
#399=ADVANCED_FACE('',(#234,#235),#283,.T.);
#400=ADVANCED_FACE('',(#236,#237),#41,.T.);
#401=ADVANCED_FACE('',(#238,#239),#42,.F.);
#402=ADVANCED_FACE('',(#240,#241),#284,.T.);
#403=ADVANCED_FACE('',(#242,#243),#43,.T.);
#404=ADVANCED_FACE('',(#244,#245),#34,.T.);
#405=ADVANCED_FACE('',(#246,#247),#35,.T.);
#406=ADVANCED_FACE('',(#248,#249),#30,.T.);
#407=ADVANCED_FACE('',(#250,#251),#31,.T.);
#408=ADVANCED_FACE('',(#252,#253),#285,.F.);
#409=ADVANCED_FACE('',(#254,#255),#32,.F.);
#410=ADVANCED_FACE('',(#256,#257),#33,.F.);
#411=ADVANCED_FACE('',(#258,#259),#286,.F.);
#412=ADVANCED_FACE('',(#260,#261),#287,.F.);
#413=ADVANCED_FACE('',(#262,#263),#288,.T.);
#414=ADVANCED_FACE('',(#264,#265),#44,.T.);
#415=ADVANCED_FACE('',(#266,#267),#45,.F.);
#416=ADVANCED_FACE('',(#268,#269),#289,.F.);
#417=ADVANCED_FACE('',(#270,#271),#46,.F.);
#418=ADVANCED_FACE('',(#272,#273),#47,.T.);
#419=ADVANCED_FACE('',(#274,#275),#36,.T.);
#420=ADVANCED_FACE('',(#276,#277),#37,.T.);
#421=ADVANCED_FACE('',(#278,#279),#38,.T.);
#422=ADVANCED_FACE('',(#280,#281),#39,.T.);
#423=CLOSED_SHELL('',(#397,#398,#399,#400,#401,#402,#403,#404,#405,#406,
#407,#408,#409,#410));
#424=CLOSED_SHELL('',(#411,#412,#413,#414,#415,#416,#417,#418,#419,#420,
#421,#422));
#425=MANIFOLD_SOLID_BREP('',#423);
#426=MANIFOLD_SOLID_BREP('',#424);
#427=SHAPE_DEFINITION_REPRESENTATION(#690,#430);
#428=SHAPE_DEFINITION_REPRESENTATION(#689,#431);
#429=SHAPE_DEFINITION_REPRESENTATION(#692,#432);
#430=SHAPE_REPRESENTATION('AR453-01',(#433),#681);
#431=SHAPE_REPRESENTATION('AR453-00',(#433,#462,#487),#680);
#432=SHAPE_REPRESENTATION('AR452-02',(#433),#682);
#433=AXIS2_PLACEMENT_3D('',#598,#488,#489);
#434=AXIS2_PLACEMENT_3D('',#599,#490,#491);
#435=AXIS2_PLACEMENT_3D('',#600,#492,#493);
#436=AXIS2_PLACEMENT_3D('',#602,#494,#495);
#437=AXIS2_PLACEMENT_3D('',#604,#496,#497);
#438=AXIS2_PLACEMENT_3D('',#605,#498,#499);
#439=AXIS2_PLACEMENT_3D('',#607,#500,#501);
#440=AXIS2_PLACEMENT_3D('',#609,#502,#503);
#441=AXIS2_PLACEMENT_3D('',#610,#504,#505);
#442=AXIS2_PLACEMENT_3D('',#612,#506,#507);
#443=AXIS2_PLACEMENT_3D('',#614,#508,#509);
#444=AXIS2_PLACEMENT_3D('',#615,#510,#511);
#445=AXIS2_PLACEMENT_3D('',#617,#512,#513);
#446=AXIS2_PLACEMENT_3D('',#619,#514,#515);
#447=AXIS2_PLACEMENT_3D('',#620,#516,#517);
#448=AXIS2_PLACEMENT_3D('',#622,#518,#519);
#449=AXIS2_PLACEMENT_3D('',#623,#520,#521);
#450=AXIS2_PLACEMENT_3D('',#625,#522,#523);
#451=AXIS2_PLACEMENT_3D('',#626,#524,#525);
#452=AXIS2_PLACEMENT_3D('',#628,#526,#527);
#453=AXIS2_PLACEMENT_3D('',#630,#528,#529);
#454=AXIS2_PLACEMENT_3D('',#631,#530,#531);
#455=AXIS2_PLACEMENT_3D('',#632,#532,#533);
#456=AXIS2_PLACEMENT_3D('',#633,#534,#535);
#457=AXIS2_PLACEMENT_3D('',#634,#536,#537);
#458=AXIS2_PLACEMENT_3D('',#635,#538,#539);
#459=AXIS2_PLACEMENT_3D('',#637,#540,#541);
#460=AXIS2_PLACEMENT_3D('',#639,#542,#543);
#461=AXIS2_PLACEMENT_3D('',#640,#544,#545);
#462=AXIS2_PLACEMENT_3D('',#641,#546,#547);
#463=AXIS2_PLACEMENT_3D('',#642,#548,#549);
#464=AXIS2_PLACEMENT_3D('',#643,#550,#551);
#465=AXIS2_PLACEMENT_3D('',#645,#552,#553);
#466=AXIS2_PLACEMENT_3D('',#647,#554,#555);
#467=AXIS2_PLACEMENT_3D('',#648,#556,#557);
#468=AXIS2_PLACEMENT_3D('',#650,#558,#559);
#469=AXIS2_PLACEMENT_3D('',#652,#560,#561);
#470=AXIS2_PLACEMENT_3D('',#653,#562,#563);
#471=AXIS2_PLACEMENT_3D('',#655,#564,#565);
#472=AXIS2_PLACEMENT_3D('',#657,#566,#567);
#473=AXIS2_PLACEMENT_3D('',#658,#568,#569);
#474=AXIS2_PLACEMENT_3D('',#660,#570,#571);
#475=AXIS2_PLACEMENT_3D('',#662,#572,#573);
#476=AXIS2_PLACEMENT_3D('',#663,#574,#575);
#477=AXIS2_PLACEMENT_3D('',#665,#576,#577);
#478=AXIS2_PLACEMENT_3D('',#667,#578,#579);
#479=AXIS2_PLACEMENT_3D('',#668,#580,#581);
#480=AXIS2_PLACEMENT_3D('',#670,#582,#583);
#481=AXIS2_PLACEMENT_3D('',#672,#584,#585);
#482=AXIS2_PLACEMENT_3D('',#673,#586,#587);
#483=AXIS2_PLACEMENT_3D('',#674,#588,#589);
#484=AXIS2_PLACEMENT_3D('',#675,#590,#591);
#485=AXIS2_PLACEMENT_3D('',#676,#592,#593);
#486=AXIS2_PLACEMENT_3D('',#677,#594,#595);
#487=AXIS2_PLACEMENT_3D('',#678,#596,#597);
#488=DIRECTION('',(0.,0.,1.));
#489=DIRECTION('',(1.,0.,0.));
#490=DIRECTION('',(0.,0.,-1.));
#491=DIRECTION('',(-1.,0.,0.));
#492=DIRECTION('',(0.,0.,-1.));
#493=DIRECTION('',(-1.,0.,0.));
#494=DIRECTION('',(0.,0.,-1.));
#495=DIRECTION('',(1.,0.,0.));
#496=DIRECTION('',(0.,0.,-1.));
#497=DIRECTION('',(-1.,0.,0.));
#498=DIRECTION('',(0.,0.,-1.));
#499=DIRECTION('',(1.,0.,0.));
#500=DIRECTION('',(0.,0.,-1.));
#501=DIRECTION('',(-1.,0.,0.));
#502=DIRECTION('',(0.,0.,1.));
#503=DIRECTION('',(1.,0.,0.));
#504=DIRECTION('',(0.,0.,-1.));
#505=DIRECTION('',(-1.,0.,0.));
#506=DIRECTION('',(0.,0.,-1.));
#507=DIRECTION('',(-1.,0.,0.));
#508=DIRECTION('',(0.,0.,-1.));
#509=DIRECTION('',(-1.,0.,0.));
#510=DIRECTION('',(0.,0.,-1.));
#511=DIRECTION('',(-1.,0.,0.));
#512=DIRECTION('',(0.,0.,-1.));
#513=DIRECTION('',(1.,0.,0.));
#514=DIRECTION('',(0.,0.,-1.));
#515=DIRECTION('',(-1.,0.,0.));
#516=DIRECTION('',(0.,0.,-1.));
#517=DIRECTION('',(-1.,0.,0.));
#518=DIRECTION('',(0.,0.,1.));
#519=DIRECTION('',(1.,0.,0.));
#520=DIRECTION('',(0.,0.,-1.));
#521=DIRECTION('',(-1.,0.,0.));
#522=DIRECTION('',(0.,0.,-1.));
#523=DIRECTION('',(-1.,0.,0.));
#524=DIRECTION('',(0.,0.,1.));
#525=DIRECTION('',(1.,0.,0.));
#526=DIRECTION('',(0.,0.,-1.));
#527=DIRECTION('',(-1.,0.,0.));
#528=DIRECTION('',(0.,0.,-1.));
#529=DIRECTION('',(-1.,0.,0.));
#530=DIRECTION('',(0.,0.,-1.));
#531=DIRECTION('',(-1.,0.,0.));
#532=DIRECTION('',(0.,0.,1.));
#533=DIRECTION('',(1.,0.,0.));
#534=DIRECTION('',(0.,0.,-1.));
#535=DIRECTION('',(-1.,0.,0.));
#536=DIRECTION('',(0.,0.,-1.));
#537=DIRECTION('',(-1.,0.,0.));
#538=DIRECTION('',(0.,0.,1.));
#539=DIRECTION('',(1.,0.,0.));
#540=DIRECTION('',(0.,0.,-1.));
#541=DIRECTION('',(-1.,0.,0.));
#542=DIRECTION('',(0.,0.,-1.));
#543=DIRECTION('',(1.,0.,0.));
#544=DIRECTION('',(0.,0.,1.));
#545=DIRECTION('',(1.,0.,0.));
#546=DIRECTION('',(0.,0.,1.));
#547=DIRECTION('',(1.,0.,0.));
#548=DIRECTION('',(0.,0.,1.));
#549=DIRECTION('',(1.,0.,0.));
#550=DIRECTION('',(0.,0.,-1.));
#551=DIRECTION('',(-1.,0.,0.));
#552=DIRECTION('',(0.,0.,-1.));
#553=DIRECTION('',(-1.,0.,0.));
#554=DIRECTION('',(0.,0.,1.));
#555=DIRECTION('',(1.,0.,0.));
#556=DIRECTION('',(0.,0.,-1.));
#557=DIRECTION('',(-1.,0.,0.));
#558=DIRECTION('',(0.,0.,-1.));
#559=DIRECTION('',(-1.,0.,0.));
#560=DIRECTION('',(0.,0.,1.));
#561=DIRECTION('',(1.,0.,0.));
#562=DIRECTION('',(0.,0.,-1.));
#563=DIRECTION('',(-1.,0.,0.));
#564=DIRECTION('',(0.,0.,-1.));
#565=DIRECTION('',(-1.,0.,0.));
#566=DIRECTION('',(0.,0.,-1.));
#567=DIRECTION('',(-1.,0.,0.));
#568=DIRECTION('',(0.,0.,-1.));
#569=DIRECTION('',(-1.,0.,0.));
#570=DIRECTION('',(0.,0.,-1.));
#571=DIRECTION('',(-1.,0.,0.));
#572=DIRECTION('',(0.,0.,-1.));
#573=DIRECTION('',(-1.,0.,0.));
#574=DIRECTION('',(0.,0.,-1.));
#575=DIRECTION('',(-1.,0.,0.));
#576=DIRECTION('',(0.,0.,-1.));
#577=DIRECTION('',(-1.,0.,0.));
#578=DIRECTION('',(0.,0.,1.));
#579=DIRECTION('',(1.,0.,0.));
#580=DIRECTION('',(0.,0.,-1.));
#581=DIRECTION('',(1.,0.,0.));
#582=DIRECTION('',(0.,0.,-1.));
#583=DIRECTION('',(1.,0.,0.));
#584=DIRECTION('',(0.,0.,-1.));
#585=DIRECTION('',(-1.,0.,0.));
#586=DIRECTION('',(0.,0.,-1.));
#587=DIRECTION('',(-1.,0.,0.));
#588=DIRECTION('',(0.,0.,-1.));
#589=DIRECTION('',(-1.,0.,0.));
#590=DIRECTION('',(0.,0.,-1.));
#591=DIRECTION('',(-1.,0.,0.));
#592=DIRECTION('',(0.,0.,-1.));
#593=DIRECTION('',(-1.,0.,0.));
#594=DIRECTION('',(0.,0.,-1.));
#595=DIRECTION('',(-1.,0.,0.));
#596=DIRECTION('',(0.,0.,1.));
#597=DIRECTION('',(1.,0.,0.));
#598=CARTESIAN_POINT('',(0.,0.,0.));
#599=CARTESIAN_POINT('',(0.,0.,20.));
#600=CARTESIAN_POINT('',(0.,0.,19.));
#601=CARTESIAN_POINT('',(-10.4775,0.,19.));
#602=CARTESIAN_POINT('',(0.,0.,0.));
#603=CARTESIAN_POINT('',(10.4775,0.,0.));
#604=CARTESIAN_POINT('',(0.,0.,20.));
#605=CARTESIAN_POINT('',(0.,0.,20.));
#606=CARTESIAN_POINT('',(8.1,0.,20.));
#607=CARTESIAN_POINT('',(0.,0.,20.));
#608=CARTESIAN_POINT('',(-9.4775,0.,20.));
#609=CARTESIAN_POINT('',(0.,0.,-300.));
#610=CARTESIAN_POINT('',(0.,0.,-299.8));
#611=CARTESIAN_POINT('',(-12.4,0.,-299.8));
#612=CARTESIAN_POINT('',(0.,0.,-0.199999999999978));
#613=CARTESIAN_POINT('',(-12.4,0.,-0.199999999999978));
#614=CARTESIAN_POINT('',(0.,0.,-300.));
#615=CARTESIAN_POINT('',(0.,0.,-300.));
#616=CARTESIAN_POINT('',(-12.2,0.,-300.));
#617=CARTESIAN_POINT('',(0.,0.,-300.));
#618=CARTESIAN_POINT('',(10.4775,0.,-300.));
#619=CARTESIAN_POINT('',(0.,0.,0.));
#620=CARTESIAN_POINT('',(0.,0.,0.));
#621=CARTESIAN_POINT('',(-12.2,0.,0.));
#622=CARTESIAN_POINT('',(0.,0.,-312.));
#623=CARTESIAN_POINT('',(0.,0.,-311.));
#624=CARTESIAN_POINT('',(-10.4775,0.,-311.));
#625=CARTESIAN_POINT('',(0.,0.,-312.));
#626=CARTESIAN_POINT('',(0.,0.,-312.));
#627=CARTESIAN_POINT('',(8.1,0.,-312.));
#628=CARTESIAN_POINT('',(0.,0.,-312.));
#629=CARTESIAN_POINT('',(-9.4775,0.,-312.));
#630=CARTESIAN_POINT('',(0.,0.,-0.199999999999978));
#631=CARTESIAN_POINT('',(0.,0.,-299.8));
#632=CARTESIAN_POINT('',(0.,0.,-312.));
#633=CARTESIAN_POINT('',(0.,0.,19.));
#634=CARTESIAN_POINT('',(0.,0.,21.8473902848426));
#635=CARTESIAN_POINT('',(0.,0.,19.4));
#636=CARTESIAN_POINT('',(7.5,0.,19.4));
#637=CARTESIAN_POINT('',(0.,0.,-311.4));
#638=CARTESIAN_POINT('',(-7.5,0.,-311.4));
#639=CARTESIAN_POINT('',(0.,0.,-312.));
#640=CARTESIAN_POINT('',(0.,0.,20.));
#641=CARTESIAN_POINT('',(0.,0.,0.));
#642=CARTESIAN_POINT('',(0.,0.,-12.));
#643=CARTESIAN_POINT('',(0.,0.,-0.200000000000001));
#644=CARTESIAN_POINT('',(-12.6,0.,-0.200000000000001));
#645=CARTESIAN_POINT('',(0.,0.,-4.5));
#646=CARTESIAN_POINT('',(-12.6,0.,-4.5));
#647=CARTESIAN_POINT('',(0.,0.,-12.));
#648=CARTESIAN_POINT('',(0.,0.,-11.8));
#649=CARTESIAN_POINT('',(-12.6,0.,-11.8));
#650=CARTESIAN_POINT('',(0.,0.,-7.5));
#651=CARTESIAN_POINT('',(-12.6,0.,-7.5));
#652=CARTESIAN_POINT('',(0.,0.,-12.));
#653=CARTESIAN_POINT('',(0.,0.,-11.8));
#654=CARTESIAN_POINT('',(-25.,0.,-11.8));
#655=CARTESIAN_POINT('',(0.,0.,-0.200000000000001));
#656=CARTESIAN_POINT('',(-25.,0.,-0.200000000000001));
#657=CARTESIAN_POINT('',(0.,0.,-12.));
#658=CARTESIAN_POINT('',(0.,0.,-12.));
#659=CARTESIAN_POINT('',(-24.8,0.,-12.));
#660=CARTESIAN_POINT('',(0.,0.,-12.));
#661=CARTESIAN_POINT('',(-12.8,0.,-12.));
#662=CARTESIAN_POINT('',(0.,0.,0.));
#663=CARTESIAN_POINT('',(0.,0.,0.));
#664=CARTESIAN_POINT('',(-12.8,0.,0.));
#665=CARTESIAN_POINT('',(0.,0.,0.));
#666=CARTESIAN_POINT('',(-24.8,0.,0.));
#667=CARTESIAN_POINT('',(0.,0.,-7.5));
#668=CARTESIAN_POINT('',(0.,0.,-7.5));
#669=CARTESIAN_POINT('',(15.,0.,-7.5));
#670=CARTESIAN_POINT('',(0.,0.,-4.5));
#671=CARTESIAN_POINT('',(15.,0.,-4.5));
#672=CARTESIAN_POINT('',(0.,0.,-7.5));
#673=CARTESIAN_POINT('',(0.,0.,-4.5));
#674=CARTESIAN_POINT('',(0.,0.,-0.200000000000001));
#675=CARTESIAN_POINT('',(0.,0.,-11.8));
#676=CARTESIAN_POINT('',(0.,0.,-0.200000000000001));
#677=CARTESIAN_POINT('',(0.,0.,-11.8));
#678=CARTESIAN_POINT('',(0.,0.,0.));
#679=MECHANICAL_DESIGN_GEOMETRIC_PRESENTATION_REPRESENTATION('',(#290,#291,
#292,#293,#294,#295,#296,#297,#298,#299,#300,#301,#302,#303,#304),#680);
#680=(
GEOMETRIC_REPRESENTATION_CONTEXT(3)
GLOBAL_UNCERTAINTY_ASSIGNED_CONTEXT((#683))
GLOBAL_UNIT_ASSIGNED_CONTEXT((#688,#687,#686))
REPRESENTATION_CONTEXT('AR453-00','TOP_LEVEL_ASSEMBLY_PART')
);
#681=(
GEOMETRIC_REPRESENTATION_CONTEXT(3)
GLOBAL_UNCERTAINTY_ASSIGNED_CONTEXT((#684))
GLOBAL_UNIT_ASSIGNED_CONTEXT((#688,#687,#686))
REPRESENTATION_CONTEXT('AR453-01','COMPONENT_PART')
);
#682=(
GEOMETRIC_REPRESENTATION_CONTEXT(3)
GLOBAL_UNCERTAINTY_ASSIGNED_CONTEXT((#685))
GLOBAL_UNIT_ASSIGNED_CONTEXT((#688,#687,#686))
REPRESENTATION_CONTEXT('AR452-02','COMPONENT_PART')
);
#683=UNCERTAINTY_MEASURE_WITH_UNIT(LENGTH_MEASURE(0.005),#688,
'DISTANCE_ACCURACY_VALUE','Maximum Tolerance applied to model');
#684=UNCERTAINTY_MEASURE_WITH_UNIT(LENGTH_MEASURE(0.005),#688,
'DISTANCE_ACCURACY_VALUE','Maximum Tolerance applied to model');
#685=UNCERTAINTY_MEASURE_WITH_UNIT(LENGTH_MEASURE(0.005),#688,
'DISTANCE_ACCURACY_VALUE','Maximum Tolerance applied to model');
#686=(
NAMED_UNIT(*)
SI_UNIT($,.STERADIAN.)
SOLID_ANGLE_UNIT()
);
#687=(
NAMED_UNIT(*)
PLANE_ANGLE_UNIT()
SI_UNIT($,.RADIAN.)
);
#688=(
LENGTH_UNIT()
NAMED_UNIT(*)
SI_UNIT(.MILLI.,.METRE.)
);
#689=PRODUCT_DEFINITION_SHAPE('','',#694);
#690=PRODUCT_DEFINITION_SHAPE('','',#695);
#691=PRODUCT_DEFINITION_SHAPE(' ','NAUO PRDDFN',#20);
#692=PRODUCT_DEFINITION_SHAPE('','',#696);
#693=PRODUCT_DEFINITION_SHAPE(' ','NAUO PRDDFN',#21);
#694=PRODUCT_DEFINITION('','',#700,#697);
#695=PRODUCT_DEFINITION('','',#701,#698);
#696=PRODUCT_DEFINITION('','',#702,#699);
#697=PRODUCT_DEFINITION_CONTEXT('',#716,'design');
#698=PRODUCT_DEFINITION_CONTEXT('',#716,'design');
#699=PRODUCT_DEFINITION_CONTEXT('',#716,'design');
#700=PRODUCT_DEFINITION_FORMATION_WITH_SPECIFIED_SOURCE('','',#706,
 .NOT_KNOWN.);
#701=PRODUCT_DEFINITION_FORMATION_WITH_SPECIFIED_SOURCE('','',#707,
 .NOT_KNOWN.);
#702=PRODUCT_DEFINITION_FORMATION_WITH_SPECIFIED_SOURCE('','',#708,
 .NOT_KNOWN.);
#703=PRODUCT_RELATED_PRODUCT_CATEGORY('','',(#706));
#704=PRODUCT_RELATED_PRODUCT_CATEGORY('','',(#707));
#705=PRODUCT_RELATED_PRODUCT_CATEGORY('','',(#708));
#706=PRODUCT('AR453-00','AR453-00','AR453-00',(#712));
#707=PRODUCT('AR453-01','AR453-01','AR453-01',(#713));
#708=PRODUCT('AR452-02','AR452-02','AR452-02',(#714));
#709=PRODUCT_CATEGORY('','');
#710=PRODUCT_CATEGORY('','');
#711=PRODUCT_CATEGORY('','');
#712=PRODUCT_CONTEXT('',#716,'mechanical');
#713=PRODUCT_CONTEXT('',#716,'mechanical');
#714=PRODUCT_CONTEXT('',#716,'mechanical');
#715=APPLICATION_PROTOCOL_DEFINITION('international standard',
'automotive_design',2010,#716);
#716=APPLICATION_CONTEXT(
'core data for automotive mechanical design processes');
ENDSEC;
END-ISO-10303-21;
